  0
SECTION
  2
HEADER
  9
$ACADVER
  1
AC1024
  9
$ACADMAINTVER
 70
     6
  9
$DWGCODEPAGE
  3
UNDEFINED
  9
$INSBASE
 10
0.0
 20
0.0
 30
0.0
  9
$EXTMIN
 10
1.000000000000000E+20
 20
1.000000000000000E+20
 30
1.000000000000000E+20
  9
$EXTMAX
 10
-1.000000000000000E+20
 20
-1.000000000000000E+20
 30
-1.000000000000000E+20
  9
$LIMMIN
 10
0.0
 20
0.0
  9
$LIMMAX
 10
12.0
 20
9.0
  9
$ORTHOMODE
 70
     0
  9
$REGENMODE
 70
     1
  9
$FILLMODE
 70
     1
  9
$QTEXTMODE
 70
     0
  9
$MIRRTEXT
 70
     1
  9
$LTSCALE
 40
1.0
  9
$ATTMODE
 70
     1
  9
$TEXTSIZE
 40
0.2
  9
$TRACEWID
 40
0.05
  9
$TEXTSTYLE
  7
Standard
  9
$CLAYER
  8
0
  9
$CELTYPE
  6
ByLayer
  9
$CECOLOR
 62
   256
  9
$CELTSCALE
 40
1.0
  9
$DISPSILH
 70
     0
  9
$DIMSCALE
 40
1.0
  9
$DIMASZ
 40
0.18
  9
$DIMEXO
 40
0.0625
  9
$DIMDLI
 40
0.38
  9
$DIMRND
 40
0.0
  9
$DIMDLE
 40
0.0
  9
$DIMEXE
 40
0.18
  9
$DIMTP
 40
0.0
  9
$DIMTM
 40
0.0
  9
$DIMTXT
 40
0.18
  9
$DIMCEN
 40
0.09
  9
$DIMTSZ
 40
0.0
  9
$DIMTOL
 70
     0
  9
$DIMLIM
 70
     0
  9
$DIMTIH
 70
     1
  9
$DIMTOH
 70
     1
  9
$DIMSE1
 70
     0
  9
$DIMSE2
 70
     0
  9
$DIMTAD
 70
     0
  9
$DIMZIN
 70
     0
  9
$DIMBLK
  1

  9
$DIMASO
 70
     1
  9
$DIMSHO
 70
     1
  9
$DIMPOST
  1

  9
$DIMAPOST
  1

  9
$DIMALT
 70
     0
  9
$DIMALTD
 70
     2
  9
$DIMALTF
 40
25.4
  9
$DIMLFAC
 40
1.0
  9
$DIMTOFL
 70
     0
  9
$DIMTVP
 40
0.0
  9
$DIMTIX
 70
     0
  9
$DIMSOXD
 70
     0
  9
$DIMSAH
 70
     0
  9
$DIMBLK1
  1

  9
$DIMBLK2
  1

  9
$DIMSTYLE
  2
Standard
  9
$DIMCLRD
 70
     0
  9
$DIMCLRE
 70
     0
  9
$DIMCLRT
 70
     0
  9
$DIMTFAC
 40
1.0
  9
$DIMGAP
 40
0.09
  9
$DIMJUST
 70
     0
  9
$DIMSD1
 70
     0
  9
$DIMSD2
 70
     0
  9
$DIMTOLJ
 70
     1
  9
$DIMTZIN
 70
     0
  9
$DIMALTZ
 70
     0
  9
$DIMALTTZ
 70
     0
  9
$DIMUPT
 70
     0
  9
$DIMDEC
 70
     4
  9
$DIMTDEC
 70
     4
  9
$DIMALTU
 70
     2
  9
$DIMALTTD
 70
     2
  9
$DIMTXSTY
  7
Standard
  9
$DIMAUNIT
 70
     0
  9
$DIMADEC
 70
     0
  9
$DIMALTRND
 40
0.0
  9
$DIMAZIN
 70
     0
  9
$DIMDSEP
 70
    46
  9
$DIMATFIT
 70
     3
  9
$DIMFRAC
 70
     0
  9
$DIMLDRBLK
  1

  9
$DIMLUNIT
 70
     2
  9
$DIMLWD
 70
    -2
  9
$DIMLWE
 70
    -2
  9
$DIMTMOVE
 70
     0
  9
$DIMFXL
 40
1.0
  9
$DIMFXLON
 70
     0
  9
$DIMJOGANG
 40
0.7853981633974483
  9
$DIMTFILL
 70
     0
  9
$DIMTFILLCLR
 70
     0
  9
$DIMARCSYM
 70
     0
  9
$DIMLTYPE
  6

  9
$DIMLTEX1
  6

  9
$DIMLTEX2
  6

  9
$DIMTXTDIRECTION
 70
     0
  9
$LUNITS
 70
     2
  9
$LUPREC
 70
     4
  9
$SKETCHINC
 40
0.1
  9
$FILLETRAD
 40
0.5
  9
$AUNITS
 70
     0
  9
$AUPREC
 70
     0
  9
$MENU
  1
.
  9
$ELEVATION
 40
0.0
  9
$PELEVATION
 40
0.0
  9
$THICKNESS
 40
0.0
  9
$LIMCHECK
 70
     0
  9
$CHAMFERA
 40
0.5
  9
$CHAMFERB
 40
0.5
  9
$CHAMFERC
 40
1.0
  9
$CHAMFERD
 40
0.0
  9
$SKPOLY
 70
     0
  9
$TDCREATE
 40
2459725.720636574
  9
$TDUCREATE
 40
2459725.678969908
  9
$TDUPDATE
 40
2459725.720636574
  9
$TDUUPDATE
 40
2459725.678969908
  9
$TDINDWG
 40
0.0000000116
  9
$TDUSRTIMER
 40
0.0000000116
  9
$USRTIMER
 70
     1
  9
$ANGBASE
 50
0.0
  9
$ANGDIR
 70
     0
  9
$PDMODE
 70
     0
  9
$PDSIZE
 40
0.0
  9
$PLINEWID
 40
0.0
  9
$SPLFRAME
 70
     0
  9
$SPLINETYPE
 70
     6
  9
$SPLINESEGS
 70
     8
  9
$HANDSEED
  5
71
  9
$SURFTAB1
 70
     6
  9
$SURFTAB2
 70
     6
  9
$SURFTYPE
 70
     6
  9
$SURFU
 70
     6
  9
$SURFV
 70
     6
  9
$UCSBASE
  2

  9
$UCSNAME
  2

  9
$UCSORG
 10
0.0
 20
0.0
 30
0.0
  9
$UCSXDIR
 10
1.0
 20
0.0
 30
0.0
  9
$UCSYDIR
 10
0.0
 20
1.0
 30
0.0
  9
$UCSORTHOREF
  2

  9
$UCSORTHOVIEW
 70
     0
  9
$UCSORGTOP
 10
0.0
 20
0.0
 30
0.0
  9
$UCSORGBOTTOM
 10
0.0
 20
0.0
 30
0.0
  9
$UCSORGLEFT
 10
0.0
 20
0.0
 30
0.0
  9
$UCSORGRIGHT
 10
0.0
 20
0.0
 30
0.0
  9
$UCSORGFRONT
 10
0.0
 20
0.0
 30
0.0
  9
$UCSORGBACK
 10
0.0
 20
0.0
 30
0.0
  9
$PUCSBASE
  2

  9
$PUCSNAME
  2

  9
$PUCSORG
 10
0.0
 20
0.0
 30
0.0
  9
$PUCSXDIR
 10
1.0
 20
0.0
 30
0.0
  9
$PUCSYDIR
 10
0.0
 20
1.0
 30
0.0
  9
$PUCSORTHOREF
  2

  9
$PUCSORTHOVIEW
 70
     0
  9
$PUCSORGTOP
 10
0.0
 20
0.0
 30
0.0
  9
$PUCSORGBOTTOM
 10
0.0
 20
0.0
 30
0.0
  9
$PUCSORGLEFT
 10
0.0
 20
0.0
 30
0.0
  9
$PUCSORGRIGHT
 10
0.0
 20
0.0
 30
0.0
  9
$PUCSORGFRONT
 10
0.0
 20
0.0
 30
0.0
  9
$PUCSORGBACK
 10
0.0
 20
0.0
 30
0.0
  9
$USERI1
 70
     0
  9
$USERI2
 70
     0
  9
$USERI3
 70
     0
  9
$USERI4
 70
     0
  9
$USERI5
 70
     0
  9
$USERR1
 40
0.0
  9
$USERR2
 40
0.0
  9
$USERR3
 40
0.0
  9
$USERR4
 40
0.0
  9
$USERR5
 40
0.0
  9
$WORLDVIEW
 70
     1
  9
$SHADEDGE
 70
     3
  9
$SHADEDIF
 70
    70
  9
$TILEMODE
 70
     1
  9
$MAXACTVP
 70
    64
  9
$PINSBASE
 10
0.0
 20
0.0
 30
0.0
  9
$PLIMCHECK
 70
     0
  9
$PEXTMIN
 10
1.000000000000000E+20
 20
1.000000000000000E+20
 30
1.000000000000000E+20
  9
$PEXTMAX
 10
-1.000000000000000E+20
 20
-1.000000000000000E+20
 30
-1.000000000000000E+20
  9
$PLIMMIN
 10
0.0
 20
0.0
  9
$PLIMMAX
 10
12.0
 20
9.0
  9
$UNITMODE
 70
     0
  9
$VISRETAIN
 70
     1
  9
$PLINEGEN
 70
     0
  9
$PSLTSCALE
 70
     1
  9
$TREEDEPTH
 70
  3020
  9
$CMLSTYLE
  2
Standard
  9
$CMLJUST
 70
     0
  9
$CMLSCALE
 40
1.0
  9
$PROXYGRAPHICS
 70
     1
  9
$MEASUREMENT
 70
     0
  9
$CELWEIGHT
370
    -1
  9
$ENDCAPS
280
     0
  9
$JOINSTYLE
280
     0
  9
$LWDISPLAY
290
     1
  9
$INSUNITS
 70
     4
  9
$HYPERLINKBASE
  1

  9
$STYLESHEET
  1

  9
$XEDIT
290
     1
  9
$CEPSNTYPE
380
     0
  9
$PSTYLEMODE
290
     1
  9
$FINGERPRINTGUID
  2
{5D276335-AEC1-56C0-6C87-5A7FCCEA3C2D}
  9
$VERSIONGUID
  2
{FAEB1C32-E019-11D5-929B-00C0DF256EC4}
  9
$EXTNAMES
290
     1
  9
$PSVPSCALE
 40
0.0
  9
$OLESTARTUP
290
     0
  9
$SORTENTS
280
   127
  9
$INDEXCTL
280
     0
  9
$HIDETEXT
280
     1
  9
$XCLIPFRAME
280
     2
  9
$HALOGAP
280
     0
  9
$OBSCOLOR
 70
   257
  9
$OBSLTYPE
280
     0
  9
$INTERSECTIONDISPLAY
280
     0
  9
$INTERSECTIONCOLOR
 70
   257
  9
$DIMASSOC
280
     2
  9
$PROJECTNAME
  1

  9
$CAMERADISPLAY
290
     0
  9
$LENSLENGTH
 40
50.0
  9
$CAMERAHEIGHT
 40
0.0
  9
$STEPSPERSEC
 40
2.0
  9
$STEPSIZE
 40
6.0
  9
$3DDWFPREC
 40
2.0
  9
$PSOLWIDTH
 40
0.25
  9
$PSOLHEIGHT
 40
4.0
  9
$LOFTANG1
 40
1.570796326794897
  9
$LOFTANG2
 40
1.570796326794897
  9
$LOFTMAG1
 40
0.0
  9
$LOFTMAG2
 40
0.0
  9
$LOFTPARAM
 70
     7
  9
$LOFTNORMALS
280
     1
  9
$LATITUDE
 40
37.795
  9
$LONGITUDE
 40
-122.394
  9
$NORTHDIRECTION
 40
0.0
  9
$TIMEZONE
 70
 -8000
  9
$LIGHTGLYPHDISPLAY
280
     1
  9
$TILEMODELIGHTSYNCH
280
     1
  9
$CMATERIAL
347
3C
  9
$SOLIDHIST
280
     1
  9
$SHOWHIST
280
     1
  9
$DWFFRAME
280
     2
  9
$DGNFRAME
280
     2
  9
$REALWORLDSCALE
290
     1
  9
$INTERFERECOLOR
 62
   256
  9
$CSHADOW
280
     0
  9
$SHADOWPLANELOCATION
 40
0.0
  0
ENDSEC
  0
SECTION
  2
CLASSES
  0
CLASS
  1
ACDBDICTIONARYWDFLT
  2
AcDbDictionaryWithDefault
  3
ObjectDBX Classes
 90
        0
 91
        4
280
     0
281
     0
  0
CLASS
  1
VISUALSTYLE
  2
AcDbVisualStyle
  3
ObjectDBX Classes
 90
     4095
 91
        4
280
     0
281
     0
  0
CLASS
  1
MATERIAL
  2
AcDbMaterial
  3
ObjectDBX Classes
 90
     1153
 91
        4
280
     0
281
     0
  0
CLASS
  1
SUN
  2
AcDbSun
  3
SCENEOE
 90
     1024
 91
        4
280
     0
281
     0
  0
ENDSEC
  0
SECTION
  2
TABLES
  0
TABLE
  2
VPORT
  5
8
330
0
100
AcDbSymbolTable
 70
     1
  0
VPORT
  5
29
330
8
100
AcDbSymbolTableRecord
100
AcDbViewportTableRecord
  2
*Active
 70
     0
 10
0.0
 20
0.0
 11
1.0
 21
1.0
 12
0.0
 22
0.0
 13
0.0
 23
0.0
 14
0.5
 24
0.5
 15
0.5
 25
0.5
 16
0.0
 26
0.0
 36
1.0
 17
249.9999999375054
 27
-104.9999999737534
 37
0.0
 40
209.9999999475068
 41
2.380952380952355
 42
50.0
 43
0.0
 44
0.0
 50
0.0
 51
0.0
 71
     0
 72
   100
 73
     1
 74
     3
 75
     0
 76
     0
 77
     0
 78
     0
281
     0
 65
     1
110
0.0
120
0.0
130
0.0
111
1.0
121
0.0
131
0.0
112
0.0
122
1.0
132
0.0
 79
     0
146
0.0
 60
     3
 61
     5
292
     1
282
     1
141
0.0
142
0.0
 63
   250
361
3F
  0
ENDTAB
  0
TABLE
  2
LTYPE
  5
5
330
0
100
AcDbSymbolTable
 70
     1
  0
LTYPE
  5
14
330
5
100
AcDbSymbolTableRecord
100
AcDbLinetypeTableRecord
  2
ByBlock
 70
     0
  3

 72
    65
 73
     0
 40
0.0
  0
LTYPE
  5
15
330
5
100
AcDbSymbolTableRecord
100
AcDbLinetypeTableRecord
  2
ByLayer
 70
     0
  3

 72
    65
 73
     0
 40
0.0
  0
LTYPE
  5
16
330
5
100
AcDbSymbolTableRecord
100
AcDbLinetypeTableRecord
  2
Continuous
 70
     0
  3
Solid line
 72
    65
 73
     0
 40
0.0
  0
ENDTAB
  0
TABLE
  2
LAYER
  5
2
330
0
100
AcDbSymbolTable
 70
     2
  0
LAYER
  5
10
330
2
100
AcDbSymbolTableRecord
100
AcDbLayerTableRecord
  2
0
 70
     0
 62
     7
  6
Continuous
370
    -3
390
F
347
3E
  0
LAYER
  5
40
330
2
100
AcDbSymbolTableRecord
100
AcDbLayerTableRecord
  2
Capa 1
 70
     0
 62
     7
  6
Continuous
370
    -3
390
F
347
3E
  0
ENDTAB
  0
TABLE
  2
STYLE
  5
3
330
0
100
AcDbSymbolTable
 70
     1
  0
STYLE
  5
11
330
3
100
AcDbSymbolTableRecord
100
AcDbTextStyleTableRecord
  2
Standard
 70
     0
 40
0.0
 41
1.0
 50
0.0
 71
     0
 42
0.2
  3
txt
  4

  0
ENDTAB
  0
TABLE
  2
VIEW
  5
6
330
0
100
AcDbSymbolTable
 70
     0
  0
ENDTAB
  0
TABLE
  2
UCS
  5
7
330
0
100
AcDbSymbolTable
 70
     0
  0
ENDTAB
  0
TABLE
  2
APPID
  5
9
330
0
100
AcDbSymbolTable
 70
     1
  0
APPID
  5
12
330
9
100
AcDbSymbolTableRecord
100
AcDbRegAppTableRecord
  2
ACAD
 70
     0
  0
ENDTAB
  0
TABLE
  2
DIMSTYLE
  5
A
330
0
100
AcDbSymbolTable
 70
     1
100
AcDbDimStyleTable
  0
DIMSTYLE
105
27
330
A
100
AcDbSymbolTableRecord
100
AcDbDimStyleTableRecord
  2
Standard
 70
     0
178
     0
340
11
  0
ENDTAB
  0
TABLE
  2
BLOCK_RECORD
  5
1
330
0
100
AcDbSymbolTable
 70
     5
  0
BLOCK_RECORD
  5
1F
330
1
100
AcDbSymbolTableRecord
100
AcDbBlockTableRecord
  2
*Model_Space
340
22
 70
     0
280
     1
281
     0
  0
BLOCK_RECORD
  5
1B
330
1
100
AcDbSymbolTableRecord
100
AcDbBlockTableRecord
  2
*Paper_Space
340
1E
 70
     0
280
     1
281
     0
  0
BLOCK_RECORD
  5
23
330
1
100
AcDbSymbolTableRecord
100
AcDbBlockTableRecord
  2
*Paper_Space0
340
26
 70
     0
280
     1
281
     0
  0
BLOCK_RECORD
  5
41
330
1
100
AcDbSymbolTableRecord
100
AcDbBlockTableRecord
  2
block 2
340
0
102
{BLKREFS
331
42
102
}
 70
     0
280
     1
281
     0
  0
BLOCK_RECORD
  5
4B
330
1
100
AcDbSymbolTableRecord
100
AcDbBlockTableRecord
  2
block 3
340
0
102
{BLKREFS
331
4C
102
}
 70
     0
280
     1
281
     0
  0
BLOCK_RECORD
  5
62
330
1
100
AcDbSymbolTableRecord
100
AcDbBlockTableRecord
  2
block 4
340
0
102
{BLKREFS
331
63
102
}
 70
     0
280
     1
281
     0
  0
BLOCK_RECORD
  5
67
330
1
100
AcDbSymbolTableRecord
100
AcDbBlockTableRecord
  2
block 5
340
0
102
{BLKREFS
331
68
102
}
 70
     0
280
     1
281
     0
  0
ENDTAB
  0
ENDSEC
  0
SECTION
  2
BLOCKS
  0
BLOCK
  5
20
330
1F
100
AcDbEntity
  8
0
100
AcDbBlockBegin
  2
*Model_Space
 70
     0
 10
0.0
 20
0.0
 30
0.0
  3
*Model_Space
  1

  0
ENDBLK
  5
21
330
1F
100
AcDbEntity
  8
0
100
AcDbBlockEnd
  0
BLOCK
  5
1C
330
1B
100
AcDbEntity
 67
     1
  8
0
100
AcDbBlockBegin
  2
*Paper_Space
 70
     0
 10
0.0
 20
0.0
 30
0.0
  3
*Paper_Space
  1

  0
ENDBLK
  5
1D
330
1B
100
AcDbEntity
 67
     1
  8
0
100
AcDbBlockEnd
  0
BLOCK
  5
24
330
23
100
AcDbEntity
  8
0
100
AcDbBlockBegin
  2
*Paper_Space0
 70
     0
 10
0.0
 20
0.0
 30
0.0
  3
*Paper_Space0
  1

  0
ENDBLK
  5
25
330
23
100
AcDbEntity
  8
0
100
AcDbBlockEnd
  0
BLOCK
  5
43
330
41
100
AcDbEntity
  8
0
100
AcDbBlockBegin
  2
block 2
 70
     0
 10
0.0
 20
0.0
 30
0.0
  3
block 2
  1

  0
SPLINE
  5
45
330
41
100
AcDbEntity
  8
Capa 1
 62
   179
420
  1842203
370
    35
100
AcDbSpline
210
0.0
220
0.0
230
1.0
 70
    11
 71
     3
 72
    29
 73
    25
 74
     0
 42
0.0000000001
 43
0.0000000001
 12
1.0
 22
0.0
 32
0.0
 13
1.0
 23
0.0
 33
0.0
 40
0.0
 40
0.0
 40
0.0
 40
0.0
 40
1.0
 40
1.0
 40
1.0
 40
2.0
 40
2.0
 40
2.0
 40
3.0
 40
3.0
 40
3.0
 40
4.0
 40
4.0
 40
4.0
 40
5.0
 40
5.0
 40
5.0
 40
6.0
 40
6.0
 40
6.0
 40
7.0
 40
7.0
 40
7.0
 40
8.0
 40
8.0
 40
8.0
 40
8.0
 10
288.7375766423746
 20
-184.9939654709926
 30
0.0
 10
288.7375766423746
 20
-184.9939654709926
 30
0.0
 10
211.3066761061769
 20
-184.9939654709926
 30
0.0
 10
211.3066761061769
 20
-184.9939654709926
 30
0.0
 10
205.1001737605062
 20
-184.9939654709926
 30
0.0
 10
200.0221263867759
 20
-179.9159180972623
 30
0.0
 10
200.0221263867759
 20
-173.7094157515916
 30
0.0
 10
200.0221263867759
 20
-173.7094157515916
 30
0.0
 10
200.0221263867759
 20
-36.27855050817117
 30
0.0
 10
200.0221263867759
 20
-36.27855050817117
 30
0.0
 10
200.0221263867759
 20
-30.07202875972287
 30
0.0
 10
205.1001896355064
 20
-24.99396551099268
 30
0.0
 10
211.3067113839544
 20
-24.99396551099268
 30
0.0
 10
211.3067113839544
 20
-24.99396551099268
 30
0.0
 10
288.7375413645977
 20
-24.99396551099268
 30
0.0
 10
288.7375413645977
 20
-24.99396551099268
 30
0.0
 10
294.9440631130457
 20
-24.99396551099268
 30
0.0
 10
300.0221263617763
 20
-30.07202875972287
 30
0.0
 10
300.0221263617763
 20
-36.27855050817117
 30
0.0
 10
300.0221263617763
 20
-36.27855050817117
 30
0.0
 10
300.0221263617763
 20
-173.7094157515909
 30
0.0
 10
300.0221263617763
 20
-173.7094157515909
 30
0.0
 10
300.0221263617763
 20
-179.9159180972617
 30
0.0
 10
294.9440789880453
 20
-184.9939654709926
 30
0.0
 10
288.7375766423746
 20
-184.9939654709926
 30
0.0
  0
SPLINE
  5
46
330
41
100
AcDbEntity
  8
Capa 1
 62
   179
420
  1842203
370
    35
100
AcDbSpline
210
0.0
220
0.0
230
1.0
 70
    11
 71
     3
 72
    17
 73
    13
 74
     0
 42
0.0000000001
 43
0.0000000001
 12
1.0
 22
0.0
 32
0.0
 13
1.0
 23
0.0
 33
0.0
 40
0.0
 40
0.0
 40
0.0
 40
0.0
 40
1.0
 40
1.0
 40
1.0
 40
2.0
 40
2.0
 40
2.0
 40
3.0
 40
3.0
 40
3.0
 40
4.0
 40
4.0
 40
4.0
 40
4.0
 10
215.432388744035
 20
-36.33229406793203
 30
0.0
 10
215.432388744035
 20
-38.54142378960194
 30
0.0
 10
213.6415476333709
 20
-40.33230017804284
 30
0.0
 10
211.4323826339235
 20
-40.33230017804284
 30
0.0
 10
209.2232529122536
 20
-40.33230017804284
 30
0.0
 10
207.4324118015902
 20
-38.54142378960194
 30
0.0
 10
207.4324118015902
 20
-36.33229406793203
 30
0.0
 10
207.4324118015902
 20
-34.12316434626212
 30
0.0
 10
209.2232529122536
 20
-32.33228795782123
 30
0.0
 10
211.4323826339235
 20
-32.33228795782123
 30
0.0
 10
213.6415476333709
 20
-32.33228795782123
 30
0.0
 10
215.432388744035
 20
-34.12316434626212
 30
0.0
 10
215.432388744035
 20
-36.33229406793203
 30
0.0
  0
SPLINE
  5
47
330
41
100
AcDbEntity
  8
Capa 1
 62
   179
420
  1842203
370
    35
100
AcDbSpline
210
0.0
220
0.0
230
1.0
 70
    11
 71
     3
 72
    17
 73
    13
 74
     0
 42
0.0000000001
 43
0.0000000001
 12
1.0
 22
0.0
 32
0.0
 13
1.0
 23
0.0
 33
0.0
 40
0.0
 40
0.0
 40
0.0
 40
0.0
 40
1.0
 40
1.0
 40
1.0
 40
2.0
 40
2.0
 40
2.0
 40
3.0
 40
3.0
 40
3.0
 40
4.0
 40
4.0
 40
4.0
 40
4.0
 10
292.6118409469619
 20
-36.33229406793203
 30
0.0
 10
292.6118409469619
 20
-38.54142378960194
 30
0.0
 10
290.8209998362985
 20
-40.33230017804284
 30
0.0
 10
288.6118348368511
 20
-40.33230017804284
 30
0.0
 10
286.4027051151812
 20
-40.33230017804284
 30
0.0
 10
284.6118640045178
 20
-38.54142378960194
 30
0.0
 10
284.6118640045178
 20
-36.33229406793203
 30
0.0
 10
284.6118640045178
 20
-34.12316434626212
 30
0.0
 10
286.4027051151812
 20
-32.33228795782123
 30
0.0
 10
288.6118348368511
 20
-32.33228795782123
 30
0.0
 10
290.8209998362985
 20
-32.33228795782123
 30
0.0
 10
292.6118409469619
 20
-34.12316434626212
 30
0.0
 10
292.6118409469619
 20
-36.33229406793203
 30
0.0
  0
SPLINE
  5
48
330
41
100
AcDbEntity
  8
Capa 1
 62
   179
420
  1842203
370
    35
100
AcDbSpline
210
0.0
220
0.0
230
1.0
 70
    11
 71
     3
 72
    17
 73
    13
 74
     0
 42
0.0000000001
 43
0.0000000001
 12
1.0
 22
0.0
 32
0.0
 13
1.0
 23
0.0
 33
0.0
 40
0.0
 40
0.0
 40
0.0
 40
0.0
 40
1.0
 40
1.0
 40
1.0
 40
2.0
 40
2.0
 40
2.0
 40
3.0
 40
3.0
 40
3.0
 40
4.0
 40
4.0
 40
4.0
 40
4.0
 10
215.432388744035
 20
-173.7984035848718
 30
0.0
 10
215.432388744035
 20
-176.0075685843199
 30
0.0
 10
213.6415476333709
 20
-177.7984096949833
 30
0.0
 10
211.4323826339235
 20
-177.7984096949833
 30
0.0
 10
209.2232529122536
 20
-177.7984096949833
 30
0.0
 10
207.4324118015902
 20
-176.0075685843199
 30
0.0
 10
207.4324118015902
 20
-173.7984035848718
 30
0.0
 10
207.4324118015902
 20
-171.5892738632019
 30
0.0
 10
209.2232529122536
 20
-169.798397474761
 30
0.0
 10
211.4323826339235
 20
-169.798397474761
 30
0.0
 10
213.6415476333709
 20
-169.798397474761
 30
0.0
 10
215.432388744035
 20
-171.5892738632019
 30
0.0
 10
215.432388744035
 20
-173.7984035848718
 30
0.0
  0
SPLINE
  5
49
330
41
100
AcDbEntity
  8
Capa 1
 62
   179
420
  1842203
370
    35
100
AcDbSpline
210
0.0
220
0.0
230
1.0
 70
    11
 71
     3
 72
    17
 73
    13
 74
     0
 42
0.0000000001
 43
0.0000000001
 12
1.0
 22
0.0
 32
0.0
 13
1.0
 23
0.0
 33
0.0
 40
0.0
 40
0.0
 40
0.0
 40
0.0
 40
1.0
 40
1.0
 40
1.0
 40
2.0
 40
2.0
 40
2.0
 40
3.0
 40
3.0
 40
3.0
 40
4.0
 40
4.0
 40
4.0
 40
4.0
 10
292.6118409469619
 20
-173.7984035848718
 30
0.0
 10
292.6118409469619
 20
-176.0075685843199
 30
0.0
 10
290.8209998362985
 20
-177.7984096949833
 30
0.0
 10
288.6118348368511
 20
-177.7984096949833
 30
0.0
 10
286.4027051151812
 20
-177.7984096949833
 30
0.0
 10
284.6118640045178
 20
-176.0075685843199
 30
0.0
 10
284.6118640045178
 20
-173.7984035848718
 30
0.0
 10
284.6118640045178
 20
-171.5892738632019
 30
0.0
 10
286.4027051151812
 20
-169.798397474761
 30
0.0
 10
288.6118348368511
 20
-169.798397474761
 30
0.0
 10
290.8209998362985
 20
-169.798397474761
 30
0.0
 10
292.6118409469619
 20
-171.5892738632019
 30
0.0
 10
292.6118409469619
 20
-173.7984035848718
 30
0.0
  0
SPLINE
  5
4A
330
41
100
AcDbEntity
  8
Capa 1
 62
   179
420
  1842203
370
    35
100
AcDbSpline
210
0.0
220
0.0
230
1.0
 70
    11
 71
     3
 72
    17
 73
    13
 74
     0
 42
0.0000000001
 43
0.0000000001
 12
1.0
 22
0.0
 32
0.0
 13
1.0
 23
0.0
 33
0.0
 40
0.0
 40
0.0
 40
0.0
 40
0.0
 40
1.0
 40
1.0
 40
1.0
 40
2.0
 40
2.0
 40
2.0
 40
3.0
 40
3.0
 40
3.0
 40
4.0
 40
4.0
 40
4.0
 40
4.0
 10
280.4981223388796
 20
-74.51798716527772
 30
0.0
 10
280.4981223388796
 20
-91.34940299440336
 30
0.0
 10
266.8535598422908
 20
-104.9939654909928
 30
0.0
 10
250.022108735387
 20
-104.9939654909928
 30
0.0
 10
233.190692906262
 20
-104.9939654909928
 30
0.0
 10
219.5461304096732
 20
-91.34940299440336
 30
0.0
 10
219.5461304096732
 20
-74.51798716527772
 30
0.0
 10
219.5461304096732
 20
-57.68650078059704
 30
0.0
 10
233.190692906262
 20
-44.04197356178578
 30
0.0
 10
250.022108735387
 20
-44.04197356178578
 30
0.0
 10
266.8535598422908
 20
-44.04197356178578
 30
0.0
 10
280.4981223388796
 20
-57.68650078059704
 30
0.0
 10
280.4981223388796
 20
-74.51798716527772
 30
0.0
  0
INSERT
  5
4C
330
41
100
AcDbEntity
  8
Capa 1
100
AcDbBlockReference
  2
block 3
 10
0.0
 20
0.0
 30
0.0
  0
INSERT
  5
63
330
41
100
AcDbEntity
  8
Capa 1
100
AcDbBlockReference
  2
block 4
 10
0.0
 20
0.0
 30
0.0
  0
ENDBLK
  5
44
330
41
100
AcDbEntity
  8
0
100
AcDbBlockEnd
  0
BLOCK
  5
4D
330
4B
100
AcDbEntity
  8
0
100
AcDbBlockBegin
  2
block 3
 70
     0
 10
0.0
 20
0.0
 30
0.0
  3
block 3
  1

  0
SPLINE
  5
4F
330
4B
100
AcDbEntity
  8
Capa 1
 62
   179
420
  1842203
370
    35
100
AcDbSpline
210
0.0
220
0.0
230
1.0
 70
    11
 71
     3
 72
    17
 73
    13
 74
     0
 42
0.0000000001
 43
0.0000000001
 12
1.0
 22
0.0
 32
0.0
 13
1.0
 23
0.0
 33
0.0
 40
0.0
 40
0.0
 40
0.0
 40
0.0
 40
1.0
 40
1.0
 40
1.0
 40
2.0
 40
2.0
 40
2.0
 40
3.0
 40
3.0
 40
3.0
 40
4.0
 40
4.0
 40
4.0
 40
4.0
 10
259.1742578997657
 20
-146.5105124250574
 30
0.0
 10
260.5307590105377
 20
-146.5105124250574
 30
0.0
 10
261.63047317693
 20
-147.6102265914497
 30
0.0
 10
261.63047317693
 20
-148.9667277022216
 30
0.0
 10
261.63047317693
 20
-150.3233346463267
 30
0.0
 10
260.5307590105377
 20
-151.4229782571627
 30
0.0
 10
259.1742578997657
 20
-151.4229782571627
 30
0.0
 10
257.8176509556607
 20
-151.4229782571627
 30
0.0
 10
256.7179720670465
 20
-150.3233346463267
 30
0.0
 10
256.7179720670465
 20
-148.9667277022216
 30
0.0
 10
256.7179720670465
 20
-147.6102265914497
 30
0.0
 10
257.8176509556607
 20
-146.5105124250574
 30
0.0
 10
259.1742578997657
 20
-146.5105124250574
 30
0.0
  0
SPLINE
  5
50
330
4B
100
AcDbEntity
  8
Capa 1
 62
   179
420
  1842203
370
    35
100
AcDbSpline
210
0.0
220
0.0
230
1.0
 70
    11
 71
     3
 72
    17
 73
    13
 74
     0
 42
0.0000000001
 43
0.0000000001
 12
1.0
 22
0.0
 32
0.0
 13
1.0
 23
0.0
 33
0.0
 40
0.0
 40
0.0
 40
0.0
 40
0.0
 40
1.0
 40
1.0
 40
1.0
 40
2.0
 40
2.0
 40
2.0
 40
3.0
 40
3.0
 40
3.0
 40
4.0
 40
4.0
 40
4.0
 40
4.0
 10
259.1742578997657
 20
-131.189973262221
 30
0.0
 10
260.5307590105377
 20
-131.189973262221
 30
0.0
 10
261.63047317693
 20
-132.2896521508352
 30
0.0
 10
261.63047317693
 20
-133.6461885393852
 30
0.0
 10
261.63047317693
 20
-135.0027602057122
 30
0.0
 10
260.5307590105377
 20
-136.1024390943263
 30
0.0
 10
259.1742578997657
 20
-136.1024390943263
 30
0.0
 10
257.8176509556607
 20
-136.1024390943263
 30
0.0
 10
256.7179720670465
 20
-135.0027602057122
 30
0.0
 10
256.7179720670465
 20
-133.6461885393852
 30
0.0
 10
256.7179720670465
 20
-132.2896521508352
 30
0.0
 10
257.8176509556607
 20
-131.189973262221
 30
0.0
 10
259.1742578997657
 20
-131.189973262221
 30
0.0
  0
SPLINE
  5
51
330
4B
100
AcDbEntity
  8
Capa 1
 62
   179
420
  1842203
370
    35
100
AcDbSpline
210
0.0
220
0.0
230
1.0
 70
    11
 71
     3
 72
    17
 73
    13
 74
     0
 42
0.0000000001
 43
0.0000000001
 12
1.0
 22
0.0
 32
0.0
 13
1.0
 23
0.0
 33
0.0
 40
0.0
 40
0.0
 40
0.0
 40
0.0
 40
1.0
 40
1.0
 40
1.0
 40
2.0
 40
2.0
 40
2.0
 40
3.0
 40
3.0
 40
3.0
 40
4.0
 40
4.0
 40
4.0
 40
4.0
 10
259.1742578997657
 20
-138.8502252047508
 30
0.0
 10
260.5307590105377
 20
-138.8502252047508
 30
0.0
 10
261.63047317693
 20
-139.9499040933649
 30
0.0
 10
261.63047317693
 20
-141.30651103747
 30
0.0
 10
261.63047317693
 20
-142.6630121482419
 30
0.0
 10
260.5307590105377
 20
-143.7627615924111
 30
0.0
 10
259.1742578997657
 20
-143.7627615924111
 30
0.0
 10
257.8176509556607
 20
-143.7627615924111
 30
0.0
 10
256.7179720670465
 20
-142.6630121482419
 30
0.0
 10
256.7179720670465
 20
-141.30651103747
 30
0.0
 10
256.7179720670465
 20
-139.9499040933649
 30
0.0
 10
257.8176509556607
 20
-138.8502252047508
 30
0.0
 10
259.1742578997657
 20
-138.8502252047508
 30
0.0
  0
SPLINE
  5
52
330
4B
100
AcDbEntity
  8
Capa 1
 62
   179
420
  1842203
370
    35
100
AcDbSpline
210
0.0
220
0.0
230
1.0
 70
    11
 71
     3
 72
    17
 73
    13
 74
     0
 42
0.0000000001
 43
0.0000000001
 12
1.0
 22
0.0
 32
0.0
 13
1.0
 23
0.0
 33
0.0
 40
0.0
 40
0.0
 40
0.0
 40
0.0
 40
1.0
 40
1.0
 40
1.0
 40
2.0
 40
2.0
 40
2.0
 40
3.0
 40
3.0
 40
3.0
 40
4.0
 40
4.0
 40
4.0
 40
4.0
 10
272.4609978964444
 20
-154.1707643675871
 30
0.0
 10
273.817569562772
 20
-154.1707643675871
 30
0.0
 10
274.9172484513855
 20
-155.2704432562013
 30
0.0
 10
274.9172484513855
 20
-156.6270149225282
 30
0.0
 10
274.9172484513855
 20
-157.9835513110783
 30
0.0
 10
273.817569562772
 20
-159.0833007552475
 30
0.0
 10
272.4609978964444
 20
-159.0833007552475
 30
0.0
 10
271.1044615078943
 20
-159.0833007552475
 30
0.0
 10
270.0047473415027
 20
-157.9835513110783
 30
0.0
 10
270.0047473415027
 20
-156.6270149225282
 30
0.0
 10
270.0047473415027
 20
-155.2704432562013
 30
0.0
 10
271.1044615078943
 20
-154.1707643675871
 30
0.0
 10
272.4609978964444
 20
-154.1707643675871
 30
0.0
  0
SPLINE
  5
53
330
4B
100
AcDbEntity
  8
Capa 1
 62
   179
420
  1842203
370
    35
100
AcDbSpline
210
0.0
220
0.0
230
1.0
 70
    11
 71
     3
 72
    17
 73
    13
 74
     0
 42
0.0000000001
 43
0.0000000001
 12
1.0
 22
0.0
 32
0.0
 13
1.0
 23
0.0
 33
0.0
 40
0.0
 40
0.0
 40
0.0
 40
0.0
 40
1.0
 40
1.0
 40
1.0
 40
2.0
 40
2.0
 40
2.0
 40
3.0
 40
3.0
 40
3.0
 40
4.0
 40
4.0
 40
4.0
 40
4.0
 10
272.4609978964444
 20
-138.8502252047508
 30
0.0
 10
273.817569562772
 20
-138.8502252047508
 30
0.0
 10
274.9172484513855
 20
-139.9499040933649
 30
0.0
 10
274.9172484513855
 20
-141.30651103747
 30
0.0
 10
274.9172484513855
 20
-142.6630121482419
 30
0.0
 10
273.817569562772
 20
-143.7627615924111
 30
0.0
 10
272.4609978964444
 20
-143.7627615924111
 30
0.0
 10
271.1044615078943
 20
-143.7627615924111
 30
0.0
 10
270.0047473415027
 20
-142.6630121482419
 30
0.0
 10
270.0047473415027
 20
-141.30651103747
 30
0.0
 10
270.0047473415027
 20
-139.9499040933649
 30
0.0
 10
271.1044615078943
 20
-138.8502252047508
 30
0.0
 10
272.4609978964444
 20
-138.8502252047508
 30
0.0
  0
SPLINE
  5
54
330
4B
100
AcDbEntity
  8
Capa 1
 62
   179
420
  1842203
370
    35
100
AcDbSpline
210
0.0
220
0.0
230
1.0
 70
    11
 71
     3
 72
    17
 73
    13
 74
     0
 42
0.0000000001
 43
0.0000000001
 12
1.0
 22
0.0
 32
0.0
 13
1.0
 23
0.0
 33
0.0
 40
0.0
 40
0.0
 40
0.0
 40
0.0
 40
1.0
 40
1.0
 40
1.0
 40
2.0
 40
2.0
 40
2.0
 40
3.0
 40
3.0
 40
3.0
 40
4.0
 40
4.0
 40
4.0
 40
4.0
 10
272.4609978964444
 20
-146.5105124250574
 30
0.0
 10
273.817569562772
 20
-146.5105124250574
 30
0.0
 10
274.9172484513855
 20
-147.6102265914497
 30
0.0
 10
274.9172484513855
 20
-148.9667277022216
 30
0.0
 10
274.9172484513855
 20
-150.3233346463267
 30
0.0
 10
273.817569562772
 20
-151.4229782571627
 30
0.0
 10
272.4609978964444
 20
-151.4229782571627
 30
0.0
 10
271.1044615078943
 20
-151.4229782571627
 30
0.0
 10
270.0047473415027
 20
-150.3233346463267
 30
0.0
 10
270.0047473415027
 20
-148.9667277022216
 30
0.0
 10
270.0047473415027
 20
-147.6102265914497
 30
0.0
 10
271.1044615078943
 20
-146.5105124250574
 30
0.0
 10
272.4609978964444
 20
-146.5105124250574
 30
0.0
  0
SPLINE
  5
55
330
4B
100
AcDbEntity
  8
Capa 1
 62
   179
420
  1842203
370
    35
100
AcDbSpline
210
0.0
220
0.0
230
1.0
 70
    11
 71
     3
 72
    17
 73
    13
 74
     0
 42
0.0000000001
 43
0.0000000001
 12
1.0
 22
0.0
 32
0.0
 13
1.0
 23
0.0
 33
0.0
 40
0.0
 40
0.0
 40
0.0
 40
0.0
 40
1.0
 40
1.0
 40
1.0
 40
2.0
 40
2.0
 40
2.0
 40
3.0
 40
3.0
 40
3.0
 40
4.0
 40
4.0
 40
4.0
 40
4.0
 10
272.4609978964444
 20
-123.5296860419144
 30
0.0
 10
273.817569562772
 20
-123.5296860419144
 30
0.0
 10
274.9172484513855
 20
-124.6294002083061
 30
0.0
 10
274.9172484513855
 20
-125.9859365968555
 30
0.0
 10
274.9172484513855
 20
-127.3424729854055
 30
0.0
 10
273.817569562772
 20
-128.4422224295747
 30
0.0
 10
272.4609978964444
 20
-128.4422224295747
 30
0.0
 10
271.1044615078943
 20
-128.4422224295747
 30
0.0
 10
270.0047473415027
 20
-127.3424729854055
 30
0.0
 10
270.0047473415027
 20
-125.9859365968555
 30
0.0
 10
270.0047473415027
 20
-124.6294002083061
 30
0.0
 10
271.1044615078943
 20
-123.5296860419144
 30
0.0
 10
272.4609978964444
 20
-123.5296860419144
 30
0.0
  0
SPLINE
  5
56
330
4B
100
AcDbEntity
  8
Capa 1
 62
   179
420
  1842203
370
    35
100
AcDbSpline
210
0.0
220
0.0
230
1.0
 70
    11
 71
     3
 72
    17
 73
    13
 74
     0
 42
0.0000000001
 43
0.0000000001
 12
1.0
 22
0.0
 32
0.0
 13
1.0
 23
0.0
 33
0.0
 40
0.0
 40
0.0
 40
0.0
 40
0.0
 40
1.0
 40
1.0
 40
1.0
 40
2.0
 40
2.0
 40
2.0
 40
3.0
 40
3.0
 40
3.0
 40
4.0
 40
4.0
 40
4.0
 40
4.0
 10
272.4609978964444
 20
-131.189973262221
 30
0.0
 10
273.817569562772
 20
-131.189973262221
 30
0.0
 10
274.9172484513855
 20
-132.2896521508352
 30
0.0
 10
274.9172484513855
 20
-133.6461885393852
 30
0.0
 10
274.9172484513855
 20
-135.0027602057122
 30
0.0
 10
273.817569562772
 20
-136.1024390943263
 30
0.0
 10
272.4609978964444
 20
-136.1024390943263
 30
0.0
 10
271.1044615078943
 20
-136.1024390943263
 30
0.0
 10
270.0047473415027
 20
-135.0027602057122
 30
0.0
 10
270.0047473415027
 20
-133.6461885393852
 30
0.0
 10
270.0047473415027
 20
-132.2896521508352
 30
0.0
 10
271.1044615078943
 20
-131.189973262221
 30
0.0
 10
272.4609978964444
 20
-131.189973262221
 30
0.0
  0
SPLINE
  5
57
330
4B
100
AcDbEntity
  8
Capa 1
 62
   179
420
  1842203
370
    35
100
AcDbSpline
210
0.0
220
0.0
230
1.0
 70
    11
 71
     3
 72
    17
 73
    13
 74
     0
 42
0.0000000001
 43
0.0000000001
 12
1.0
 22
0.0
 32
0.0
 13
1.0
 23
0.0
 33
0.0
 40
0.0
 40
0.0
 40
0.0
 40
0.0
 40
1.0
 40
1.0
 40
1.0
 40
2.0
 40
2.0
 40
2.0
 40
3.0
 40
3.0
 40
3.0
 40
4.0
 40
4.0
 40
4.0
 40
4.0
 10
265.8176278981054
 20
-150.5325318684969
 30
0.0
 10
267.1741642866548
 20
-150.5325318684969
 30
0.0
 10
268.2738784530465
 20
-151.6322813126661
 30
0.0
 10
268.2738784530465
 20
-152.9888177012162
 30
0.0
 10
268.2738784530465
 20
-154.3453893675431
 30
0.0
 10
267.1741642866548
 20
-155.4450682561573
 30
0.0
 10
265.8176278981054
 20
-155.4450682561573
 30
0.0
 10
264.4610562317771
 20
-155.4450682561573
 30
0.0
 10
263.3614126209412
 20
-154.3453893675431
 30
0.0
 10
263.3614126209412
 20
-152.9888177012162
 30
0.0
 10
263.3614126209412
 20
-151.6322813126661
 30
0.0
 10
264.4610562317771
 20
-150.5325318684969
 30
0.0
 10
265.8176278981054
 20
-150.5325318684969
 30
0.0
  0
SPLINE
  5
58
330
4B
100
AcDbEntity
  8
Capa 1
 62
   179
420
  1842203
370
    35
100
AcDbSpline
210
0.0
220
0.0
230
1.0
 70
    11
 71
     3
 72
    17
 73
    13
 74
     0
 42
0.0000000001
 43
0.0000000001
 12
1.0
 22
0.0
 32
0.0
 13
1.0
 23
0.0
 33
0.0
 40
0.0
 40
0.0
 40
0.0
 40
0.0
 40
1.0
 40
1.0
 40
1.0
 40
2.0
 40
2.0
 40
2.0
 40
3.0
 40
3.0
 40
3.0
 40
4.0
 40
4.0
 40
4.0
 40
4.0
 10
265.8176278981054
 20
-135.2119927056605
 30
0.0
 10
267.1741642866548
 20
-135.2119927056605
 30
0.0
 10
268.2738784530465
 20
-136.3117068720516
 30
0.0
 10
268.2738784530465
 20
-137.6682432606016
 30
0.0
 10
268.2738784530465
 20
-139.0248502047067
 30
0.0
 10
267.1741642866548
 20
-140.1244938155434
 30
0.0
 10
265.8176278981054
 20
-140.1244938155434
 30
0.0
 10
264.4610562317771
 20
-140.1244938155434
 30
0.0
 10
263.3614126209412
 20
-139.0248502047067
 30
0.0
 10
263.3614126209412
 20
-137.6682432606016
 30
0.0
 10
263.3614126209412
 20
-136.3117068720516
 30
0.0
 10
264.4610562317771
 20
-135.2119927056605
 30
0.0
 10
265.8176278981054
 20
-135.2119927056605
 30
0.0
  0
SPLINE
  5
59
330
4B
100
AcDbEntity
  8
Capa 1
 62
   179
420
  1842203
370
    35
100
AcDbSpline
210
0.0
220
0.0
230
1.0
 70
    11
 71
     3
 72
    17
 73
    13
 74
     0
 42
0.0000000001
 43
0.0000000001
 12
1.0
 22
0.0
 32
0.0
 13
1.0
 23
0.0
 33
0.0
 40
0.0
 40
0.0
 40
0.0
 40
0.0
 40
1.0
 40
1.0
 40
1.0
 40
2.0
 40
2.0
 40
2.0
 40
3.0
 40
3.0
 40
3.0
 40
4.0
 40
4.0
 40
4.0
 40
4.0
 10
265.8176278981054
 20
-142.8723152037453
 30
0.0
 10
267.1741642866548
 20
-142.8723152037453
 30
0.0
 10
268.2738784530465
 20
-143.9719588145813
 30
0.0
 10
268.2738784530465
 20
-145.3285657586864
 30
0.0
 10
268.2738784530465
 20
-146.6850668694583
 30
0.0
 10
267.1741642866548
 20
-147.7847810358507
 30
0.0
 10
265.8176278981054
 20
-147.7847810358507
 30
0.0
 10
264.4610562317771
 20
-147.7847810358507
 30
0.0
 10
263.3614126209412
 20
-146.6850668694583
 30
0.0
 10
263.3614126209412
 20
-145.3285657586864
 30
0.0
 10
263.3614126209412
 20
-143.9719588145813
 30
0.0
 10
264.4610562317771
 20
-142.8723152037453
 30
0.0
 10
265.8176278981054
 20
-142.8723152037453
 30
0.0
  0
SPLINE
  5
5A
330
4B
100
AcDbEntity
  8
Capa 1
 62
   179
420
  1842203
370
    35
100
AcDbSpline
210
0.0
220
0.0
230
1.0
 70
    11
 71
     3
 72
    17
 73
    13
 74
     0
 42
0.0000000001
 43
0.0000000001
 12
1.0
 22
0.0
 32
0.0
 13
1.0
 23
0.0
 33
0.0
 40
0.0
 40
0.0
 40
0.0
 40
0.0
 40
1.0
 40
1.0
 40
1.0
 40
2.0
 40
2.0
 40
2.0
 40
3.0
 40
3.0
 40
3.0
 40
4.0
 40
4.0
 40
4.0
 40
4.0
 10
265.8176278981054
 20
-127.5517407631308
 30
0.0
 10
267.1741642866548
 20
-127.5517407631308
 30
0.0
 10
268.2738784530465
 20
-128.6514902073
 30
0.0
 10
268.2738784530465
 20
-130.0079913180725
 30
0.0
 10
268.2738784530465
 20
-131.3645277066219
 30
0.0
 10
267.1741642866548
 20
-132.4642771507912
 30
0.0
 10
265.8176278981054
 20
-132.4642771507912
 30
0.0
 10
264.4610562317771
 20
-132.4642771507912
 30
0.0
 10
263.3614126209412
 20
-131.3645277066219
 30
0.0
 10
263.3614126209412
 20
-130.0079913180725
 30
0.0
 10
263.3614126209412
 20
-128.6514902073
 30
0.0
 10
264.4610562317771
 20
-127.5517407631308
 30
0.0
 10
265.8176278981054
 20
-127.5517407631308
 30
0.0
  0
SPLINE
  5
5B
330
4B
100
AcDbEntity
  8
Capa 1
 62
   179
420
  1842203
370
    35
100
AcDbSpline
210
0.0
220
0.0
230
1.0
 70
    11
 71
     3
 72
    17
 73
    13
 74
     0
 42
0.0000000001
 43
0.0000000001
 12
1.0
 22
0.0
 32
0.0
 13
1.0
 23
0.0
 33
0.0
 40
0.0
 40
0.0
 40
0.0
 40
0.0
 40
1.0
 40
1.0
 40
1.0
 40
2.0
 40
2.0
 40
2.0
 40
3.0
 40
3.0
 40
3.0
 40
4.0
 40
4.0
 40
4.0
 40
4.0
 10
285.7847442820021
 20
-136.4862965942307
 30
0.0
 10
284.4282078934521
 20
-136.4862965942307
 30
0.0
 10
283.328493727061
 20
-135.3866177056165
 30
0.0
 10
283.328493727061
 20
-134.0300813170664
 30
0.0
 10
283.328493727061
 20
-132.6735096507395
 30
0.0
 10
284.4282078934521
 20
-131.5737954843472
 30
0.0
 10
285.7847442820021
 20
-131.5737954843472
 30
0.0
 10
287.1412806705521
 20
-131.5737954843472
 30
0.0
 10
288.2409948369439
 20
-132.6735096507395
 30
0.0
 10
288.2409948369439
 20
-134.0300813170664
 30
0.0
 10
288.2409948369439
 20
-135.3866177056165
 30
0.0
 10
287.1412806705521
 20
-136.4862965942307
 30
0.0
 10
285.7847442820021
 20
-136.4862965942307
 30
0.0
  0
SPLINE
  5
5C
330
4B
100
AcDbEntity
  8
Capa 1
 62
   179
420
  1842203
370
    35
100
AcDbSpline
210
0.0
220
0.0
230
1.0
 70
    11
 71
     3
 72
    17
 73
    13
 74
     0
 42
0.0000000001
 43
0.0000000001
 12
1.0
 22
0.0
 32
0.0
 13
1.0
 23
0.0
 33
0.0
 40
0.0
 40
0.0
 40
0.0
 40
0.0
 40
1.0
 40
1.0
 40
1.0
 40
2.0
 40
2.0
 40
2.0
 40
3.0
 40
3.0
 40
3.0
 40
4.0
 40
4.0
 40
4.0
 40
4.0
 10
285.7847442820021
 20
-151.8068357570671
 30
0.0
 10
284.4282078934521
 20
-151.8068357570671
 30
0.0
 10
283.328493727061
 20
-150.7071568684529
 30
0.0
 10
283.328493727061
 20
-149.3506204799035
 30
0.0
 10
283.328493727061
 20
-147.9940488135759
 30
0.0
 10
284.4282078934521
 20
-146.8943699249617
 30
0.0
 10
285.7847442820021
 20
-146.8943699249617
 30
0.0
 10
287.1412806705521
 20
-146.8943699249617
 30
0.0
 10
288.2409948369439
 20
-147.9940488135759
 30
0.0
 10
288.2409948369439
 20
-149.3506204799035
 30
0.0
 10
288.2409948369439
 20
-150.7071568684529
 30
0.0
 10
287.1412806705521
 20
-151.8068357570671
 30
0.0
 10
285.7847442820021
 20
-151.8068357570671
 30
0.0
  0
SPLINE
  5
5D
330
4B
100
AcDbEntity
  8
Capa 1
 62
   179
420
  1842203
370
    35
100
AcDbSpline
210
0.0
220
0.0
230
1.0
 70
    11
 71
     3
 72
    17
 73
    13
 74
     0
 42
0.0000000001
 43
0.0000000001
 12
1.0
 22
0.0
 32
0.0
 13
1.0
 23
0.0
 33
0.0
 40
0.0
 40
0.0
 40
0.0
 40
0.0
 40
1.0
 40
1.0
 40
1.0
 40
2.0
 40
2.0
 40
2.0
 40
3.0
 40
3.0
 40
3.0
 40
4.0
 40
4.0
 40
4.0
 40
4.0
 10
285.7847442820021
 20
-144.1465838145373
 30
0.0
 10
284.4282078934521
 20
-144.1465838145373
 30
0.0
 10
283.328493727061
 20
-143.0468696481462
 30
0.0
 10
283.328493727061
 20
-141.6903332595962
 30
0.0
 10
283.328493727061
 20
-140.3337968710461
 30
0.0
 10
284.4282078934521
 20
-139.2340474268769
 30
0.0
 10
285.7847442820021
 20
-139.2340474268769
 30
0.0
 10
287.1412806705521
 20
-139.2340474268769
 30
0.0
 10
288.2409948369439
 20
-140.3337968710461
 30
0.0
 10
288.2409948369439
 20
-141.6903332595962
 30
0.0
 10
288.2409948369439
 20
-143.0468696481462
 30
0.0
 10
287.1412806705521
 20
-144.1465838145373
 30
0.0
 10
285.7847442820021
 20
-144.1465838145373
 30
0.0
  0
SPLINE
  5
5E
330
4B
100
AcDbEntity
  8
Capa 1
 62
   179
420
  1842203
370
    35
100
AcDbSpline
210
0.0
220
0.0
230
1.0
 70
    11
 71
     3
 72
    17
 73
    13
 74
     0
 42
0.0000000001
 43
0.0000000001
 12
1.0
 22
0.0
 32
0.0
 13
1.0
 23
0.0
 33
0.0
 40
0.0
 40
0.0
 40
0.0
 40
0.0
 40
1.0
 40
1.0
 40
1.0
 40
2.0
 40
2.0
 40
2.0
 40
3.0
 40
3.0
 40
3.0
 40
4.0
 40
4.0
 40
4.0
 40
4.0
 10
279.1413390058856
 20
-132.4642771507912
 30
0.0
 10
277.7848026173355
 20
-132.4642771507912
 30
0.0
 10
276.6851237287214
 20
-131.3645277066219
 30
0.0
 10
276.6851237287214
 20
-130.0079913180725
 30
0.0
 10
276.6851237287214
 20
-128.6514902073
 30
0.0
 10
277.7848026173355
 20
-127.5517407631308
 30
0.0
 10
279.1413390058856
 20
-127.5517407631308
 30
0.0
 10
280.4979106722125
 20
-127.5517407631308
 30
0.0
 10
281.5975895608267
 20
-128.6514902073
 30
0.0
 10
281.5975895608267
 20
-130.0079913180725
 30
0.0
 10
281.5975895608267
 20
-131.3645277066219
 30
0.0
 10
280.4979106722125
 20
-132.4642771507912
 30
0.0
 10
279.1413390058856
 20
-132.4642771507912
 30
0.0
  0
SPLINE
  5
5F
330
4B
100
AcDbEntity
  8
Capa 1
 62
   179
420
  1842203
370
    35
100
AcDbSpline
210
0.0
220
0.0
230
1.0
 70
    11
 71
     3
 72
    17
 73
    13
 74
     0
 42
0.0000000001
 43
0.0000000001
 12
1.0
 22
0.0
 32
0.0
 13
1.0
 23
0.0
 33
0.0
 40
0.0
 40
0.0
 40
0.0
 40
0.0
 40
1.0
 40
1.0
 40
1.0
 40
2.0
 40
2.0
 40
2.0
 40
3.0
 40
3.0
 40
3.0
 40
4.0
 40
4.0
 40
4.0
 40
4.0
 10
279.1413390058856
 20
-147.7847810358507
 30
0.0
 10
277.7848026173355
 20
-147.7847810358507
 30
0.0
 10
276.6851237287214
 20
-146.6850668694583
 30
0.0
 10
276.6851237287214
 20
-145.3285657586864
 30
0.0
 10
276.6851237287214
 20
-143.9719588145813
 30
0.0
 10
277.7848026173355
 20
-142.8723152037453
 30
0.0
 10
279.1413390058856
 20
-142.8723152037453
 30
0.0
 10
280.4979106722125
 20
-142.8723152037453
 30
0.0
 10
281.5975895608267
 20
-143.9719588145813
 30
0.0
 10
281.5975895608267
 20
-145.3285657586864
 30
0.0
 10
281.5975895608267
 20
-146.6850668694583
 30
0.0
 10
280.4979106722125
 20
-147.7847810358507
 30
0.0
 10
279.1413390058856
 20
-147.7847810358507
 30
0.0
  0
SPLINE
  5
60
330
4B
100
AcDbEntity
  8
Capa 1
 62
   179
420
  1842203
370
    35
100
AcDbSpline
210
0.0
220
0.0
230
1.0
 70
    11
 71
     3
 72
    17
 73
    13
 74
     0
 42
0.0000000001
 43
0.0000000001
 12
1.0
 22
0.0
 32
0.0
 13
1.0
 23
0.0
 33
0.0
 40
0.0
 40
0.0
 40
0.0
 40
0.0
 40
1.0
 40
1.0
 40
1.0
 40
2.0
 40
2.0
 40
2.0
 40
3.0
 40
3.0
 40
3.0
 40
4.0
 40
4.0
 40
4.0
 40
4.0
 10
279.1413390058856
 20
-140.1244938155434
 30
0.0
 10
277.7848026173355
 20
-140.1244938155434
 30
0.0
 10
276.6851237287214
 20
-139.0248502047067
 30
0.0
 10
276.6851237287214
 20
-137.6682432606016
 30
0.0
 10
276.6851237287214
 20
-136.3117068720516
 30
0.0
 10
277.7848026173355
 20
-135.2119927056605
 30
0.0
 10
279.1413390058856
 20
-135.2119927056605
 30
0.0
 10
280.4979106722125
 20
-135.2119927056605
 30
0.0
 10
281.5975895608267
 20
-136.3117068720516
 30
0.0
 10
281.5975895608267
 20
-137.6682432606016
 30
0.0
 10
281.5975895608267
 20
-139.0248502047067
 30
0.0
 10
280.4979106722125
 20
-140.1244938155434
 30
0.0
 10
279.1413390058856
 20
-140.1244938155434
 30
0.0
  0
SPLINE
  5
61
330
4B
100
AcDbEntity
  8
Capa 1
 62
   179
420
  1842203
370
    35
100
AcDbSpline
210
0.0
220
0.0
230
1.0
 70
    11
 71
     3
 72
    17
 73
    13
 74
     0
 42
0.0000000001
 43
0.0000000001
 12
1.0
 22
0.0
 32
0.0
 13
1.0
 23
0.0
 33
0.0
 40
0.0
 40
0.0
 40
0.0
 40
0.0
 40
1.0
 40
1.0
 40
1.0
 40
2.0
 40
2.0
 40
2.0
 40
3.0
 40
3.0
 40
3.0
 40
4.0
 40
4.0
 40
4.0
 40
4.0
 10
279.1413390058856
 20
-155.4450682561573
 30
0.0
 10
277.7848026173355
 20
-155.4450682561573
 30
0.0
 10
276.6851237287214
 20
-154.3453893675431
 30
0.0
 10
276.6851237287214
 20
-152.9888177012162
 30
0.0
 10
276.6851237287214
 20
-151.6322813126661
 30
0.0
 10
277.7848026173355
 20
-150.5325318684969
 30
0.0
 10
279.1413390058856
 20
-150.5325318684969
 30
0.0
 10
280.4979106722125
 20
-150.5325318684969
 30
0.0
 10
281.5975895608267
 20
-151.6322813126661
 30
0.0
 10
281.5975895608267
 20
-152.9888177012162
 30
0.0
 10
281.5975895608267
 20
-154.3453893675431
 30
0.0
 10
280.4979106722125
 20
-155.4450682561573
 30
0.0
 10
279.1413390058856
 20
-155.4450682561573
 30
0.0
  0
ENDBLK
  5
4E
330
4B
100
AcDbEntity
  8
0
100
AcDbBlockEnd
  0
BLOCK
  5
64
330
62
100
AcDbEntity
  8
0
100
AcDbBlockBegin
  2
block 4
 70
     0
 10
0.0
 20
0.0
 30
0.0
  3
block 4
  1

  0
SPLINE
  5
66
330
62
100
AcDbEntity
  8
Capa 1
 62
   179
420
  1842203
370
    35
100
AcDbSpline
210
0.0
220
0.0
230
1.0
 70
    11
 71
     3
 72
    17
 73
    13
 74
     0
 42
0.0000000001
 43
0.0000000001
 12
1.0
 22
0.0
 32
0.0
 13
1.0
 23
0.0
 33
0.0
 40
0.0
 40
0.0
 40
0.0
 40
0.0
 40
1.0
 40
1.0
 40
1.0
 40
2.0
 40
2.0
 40
2.0
 40
3.0
 40
3.0
 40
3.0
 40
4.0
 40
4.0
 40
4.0
 40
4.0
 10
237.2893356830147
 20
-139.2340474268769
 30
0.0
 10
237.2893356830147
 20
-144.7536085366084
 30
0.0
 10
232.814843461911
 20
-149.2280302021564
 30
0.0
 10
227.2953176299578
 20
-149.2280302021564
 30
0.0
 10
221.7757917980045
 20
-149.2280302021564
 30
0.0
 10
217.3013348546789
 20
-144.7536085366084
 30
0.0
 10
217.3013348546789
 20
-139.2340474268769
 30
0.0
 10
217.3013348546789
 20
-133.7145921504787
 30
0.0
 10
221.7757917980045
 20
-129.240099929375
 30
0.0
 10
227.2953176299578
 20
-129.240099929375
 30
0.0
 10
232.814843461911
 20
-129.240099929375
 30
0.0
 10
237.2893356830147
 20
-133.7145921504787
 30
0.0
 10
237.2893356830147
 20
-139.2340474268769
 30
0.0
  0
INSERT
  5
68
330
62
100
AcDbEntity
  8
Capa 1
100
AcDbBlockReference
  2
block 5
 10
0.0
 20
0.0
 30
0.0
  0
ENDBLK
  5
65
330
62
100
AcDbEntity
  8
0
100
AcDbBlockEnd
  0
BLOCK
  5
69
330
67
100
AcDbEntity
  8
0
100
AcDbBlockBegin
  2
block 5
 70
     0
 10
0.0
 20
0.0
 30
0.0
  3
block 5
  1

  0
SPLINE
  5
6B
330
67
100
AcDbEntity
  8
Capa 1
 62
   179
420
  1842203
370
    35
100
AcDbSpline
210
0.0
220
0.0
230
1.0
 70
    11
 71
     3
 72
    17
 73
    13
 74
     0
 42
0.0000000001
 43
0.0000000001
 12
1.0
 22
0.0
 32
0.0
 13
1.0
 23
0.0
 33
0.0
 40
0.0
 40
0.0
 40
0.0
 40
0.0
 40
1.0
 40
1.0
 40
1.0
 40
2.0
 40
2.0
 40
2.0
 40
3.0
 40
3.0
 40
3.0
 40
4.0
 40
4.0
 40
4.0
 40
4.0
 10
213.9511806888494
 20
-124.1412615973169
 30
0.0
 10
214.8711898552857
 20
-124.1412615973169
 30
0.0
 10
215.6169973550995
 20
-124.88706909713
 30
0.0
 10
215.6169973550995
 20
-125.8071135413445
 30
0.0
 10
215.6169973550995
 20
-126.727087430004
 30
0.0
 10
214.8711898552857
 20
-127.4728949298171
 30
0.0
 10
213.9511806888494
 20
-127.4728949298171
 30
0.0
 10
213.0311715224131
 20
-127.4728949298171
 30
0.0
 10
212.2853993003768
 20
-126.727087430004
 30
0.0
 10
212.2853993003768
 20
-125.8071135413445
 30
0.0
 10
212.2853993003768
 20
-124.88706909713
 30
0.0
 10
213.0311715224131
 20
-124.1412615973169
 30
0.0
 10
213.9511806888494
 20
-124.1412615973169
 30
0.0
  0
SPLINE
  5
6C
330
67
100
AcDbEntity
  8
Capa 1
 62
   179
420
  1842203
370
    35
100
AcDbSpline
210
0.0
220
0.0
230
1.0
 70
    11
 71
     3
 72
    17
 73
    13
 74
     0
 42
0.0000000001
 43
0.0000000001
 12
1.0
 22
0.0
 32
0.0
 13
1.0
 23
0.0
 33
0.0
 40
0.0
 40
0.0
 40
0.0
 40
0.0
 40
1.0
 40
1.0
 40
1.0
 40
2.0
 40
2.0
 40
2.0
 40
3.0
 40
3.0
 40
3.0
 40
4.0
 40
4.0
 40
4.0
 40
4.0
 10
240.6394545710661
 20
-124.1412615973169
 30
0.0
 10
241.5594284597256
 20
-124.1412615973169
 30
0.0
 10
242.3052712373169
 20
-124.88706909713
 30
0.0
 10
242.3052712373169
 20
-125.8071135413445
 30
0.0
 10
242.3052712373169
 20
-126.727087430004
 30
0.0
 10
241.5594284597256
 20
-127.4728949298171
 30
0.0
 10
240.6394545710661
 20
-127.4728949298171
 30
0.0
 10
239.7194101268516
 20
-127.4728949298171
 30
0.0
 10
238.9736026270385
 20
-126.727087430004
 30
0.0
 10
238.9736026270385
 20
-125.8071135413445
 30
0.0
 10
238.9736026270385
 20
-124.88706909713
 30
0.0
 10
239.7194101268516
 20
-124.1412615973169
 30
0.0
 10
240.6394545710661
 20
-124.1412615973169
 30
0.0
  0
SPLINE
  5
6D
330
67
100
AcDbEntity
  8
Capa 1
 62
   179
420
  1842203
370
    35
100
AcDbSpline
210
0.0
220
0.0
230
1.0
 70
    11
 71
     3
 72
    17
 73
    13
 74
     0
 42
0.0000000001
 43
0.0000000001
 12
1.0
 22
0.0
 32
0.0
 13
1.0
 23
0.0
 33
0.0
 40
0.0
 40
0.0
 40
0.0
 40
0.0
 40
1.0
 40
1.0
 40
1.0
 40
2.0
 40
2.0
 40
2.0
 40
3.0
 40
3.0
 40
3.0
 40
4.0
 40
4.0
 40
4.0
 40
4.0
 10
213.9511806888494
 20
-150.9952704794918
 30
0.0
 10
214.8711898552857
 20
-150.9952704794918
 30
0.0
 10
215.6169973550995
 20
-151.741042701528
 30
0.0
 10
215.6169973550995
 20
-152.6610871457425
 30
0.0
 10
215.6169973550995
 20
-153.5810963121789
 30
0.0
 10
214.8711898552857
 20
-154.3268685342151
 30
0.0
 10
213.9511806888494
 20
-154.3268685342151
 30
0.0
 10
213.0311715224131
 20
-154.3268685342151
 30
0.0
 10
212.2853993003768
 20
-153.5810963121789
 30
0.0
 10
212.2853993003768
 20
-152.6610871457425
 30
0.0
 10
212.2853993003768
 20
-151.741042701528
 30
0.0
 10
213.0311715224131
 20
-150.9952704794918
 30
0.0
 10
213.9511806888494
 20
-150.9952704794918
 30
0.0
  0
SPLINE
  5
6E
330
67
100
AcDbEntity
  8
Capa 1
 62
   179
420
  1842203
370
    35
100
AcDbSpline
210
0.0
220
0.0
230
1.0
 70
    11
 71
     3
 72
    17
 73
    13
 74
     0
 42
0.0000000001
 43
0.0000000001
 12
1.0
 22
0.0
 32
0.0
 13
1.0
 23
0.0
 33
0.0
 40
0.0
 40
0.0
 40
0.0
 40
0.0
 40
1.0
 40
1.0
 40
1.0
 40
2.0
 40
2.0
 40
2.0
 40
3.0
 40
3.0
 40
3.0
 40
4.0
 40
4.0
 40
4.0
 40
4.0
 10
240.6394545710661
 20
-150.9952704794918
 30
0.0
 10
241.5594284597256
 20
-150.9952704794918
 30
0.0
 10
242.3052712373169
 20
-151.741042701528
 30
0.0
 10
242.3052712373169
 20
-152.6610871457425
 30
0.0
 10
242.3052712373169
 20
-153.5810963121789
 30
0.0
 10
241.5594284597256
 20
-154.3268685342151
 30
0.0
 10
240.6394545710661
 20
-154.3268685342151
 30
0.0
 10
239.7194101268516
 20
-154.3268685342151
 30
0.0
 10
238.9736026270385
 20
-153.5810963121789
 30
0.0
 10
238.9736026270385
 20
-152.6610871457425
 30
0.0
 10
238.9736026270385
 20
-151.741042701528
 30
0.0
 10
239.7194101268516
 20
-150.9952704794918
 30
0.0
 10
240.6394545710661
 20
-150.9952704794918
 30
0.0
  0
ENDBLK
  5
6A
330
67
100
AcDbEntity
  8
0
100
AcDbBlockEnd
  0
ENDSEC
  0
SECTION
  2
ENTITIES
  0
INSERT
  5
42
330
1F
100
AcDbEntity
  8
Capa 1
100
AcDbBlockReference
  2
block 2
 10
0.0
 20
0.0
 30
0.0
  0
ENDSEC
  0
SECTION
  2
OBJECTS
  0
DICTIONARY
  5
C
330
0
100
AcDbDictionary
281
     1
  3
ACAD_GROUP
350
D
  3
ACAD_LAYOUT
350
1A
  3
ACAD_MATERIAL
350
3B
  3
ACAD_MLEADERSTYLE
350
70
  3
ACAD_MLINESTYLE
350
17
  3
ACAD_PLOTSETTINGS
350
19
  3
ACAD_PLOTSTYLENAME
350
E
  3
ACAD_TABLESTYLE
350
6F
  3
ACAD_VISUALSTYLE
350
2A
  0
SUN
  5
3F
330
29
100
AcDbSun
 90
        1
290
     0
 63
     7
421
 16777215
 40
1.0
291
     1
 91
  2455826
 92
 54000000
292
     0
 70
     2
 71
   256
280
     1
  0
DICTIONARY
  5
D
102
{ACAD_REACTORS
330
C
102
}
330
C
100
AcDbDictionary
281
     1
  0
DICTIONARY
  5
1A
102
{ACAD_REACTORS
330
C
102
}
330
C
100
AcDbDictionary
281
     1
  3
Layout1
350
1E
  3
Layout2
350
26
  3
Model
350
22
  0
DICTIONARY
  5
3B
102
{ACAD_REACTORS
330
C
102
}
330
C
100
AcDbDictionary
281
     1
  3
ByBlock
350
3D
  3
ByLayer
350
3C
  3
Global
350
3E
  0
DICTIONARY
  5
70
102
{ACAD_REACTORS
330
C
102
}
330
C
100
AcDbDictionary
281
     1
  0
DICTIONARY
  5
17
102
{ACAD_REACTORS
330
C
102
}
330
C
100
AcDbDictionary
281
     1
  3
Standard
350
18
  0
DICTIONARY
  5
19
102
{ACAD_REACTORS
330
C
102
}
330
C
100
AcDbDictionary
281
     1
  0
ACDBDICTIONARYWDFLT
  5
E
102
{ACAD_REACTORS
330
C
102
}
330
C
100
AcDbDictionary
281
     1
  3
Normal
350
F
100
AcDbDictionaryWithDefault
340
F
  0
DICTIONARY
  5
6F
102
{ACAD_REACTORS
330
C
102
}
330
C
100
AcDbDictionary
281
     1
  0
DICTIONARY
  5
2A
102
{ACAD_REACTORS
330
C
102
}
330
C
100
AcDbDictionary
281
     1
  3
2dWireframe
350
2F
  3
3D Hidden
350
31
  3
3dWireframe
350
30
  3
Basic
350
32
  3
Brighten
350
36
  3
ColorChange
350
3A
  3
Conceptual
350
34
  3
Dim
350
35
  3
Facepattern
350
39
  3
Flat
350
2B
  3
FlatWithEdges
350
2C
  3
Gouraud
350
2D
  3
GouraudWithEdges
350
2E
  3
Linepattern
350
38
  3
Realistic
350
33
  3
Thicken
350
37
  0
LAYOUT
  5
1E
102
{ACAD_REACTORS
330
1A
102
}
330
1A
100
AcDbPlotSettings
  1

  2
none_device
  4

  6

 40
0.0
 41
0.0
 42
0.0
 43
0.0
 44
0.0
 45
0.0
 46
0.0
 47
0.0
 48
0.0
 49
0.0
140
0.0
141
0.0
142
1.0
143
1.0
 70
   688
 72
     0
 73
     0
 74
     5
  7

 75
    16
 76
     0
 77
     2
 78
   300
147
1.0
148
0.0
149
0.0
100
AcDbLayout
  1
Layout1
 70
     1
 71
     1
 10
0.0
 20
0.0
 11
12.0
 21
9.0
 12
0.0
 22
0.0
 32
0.0
 14
1.000000000000000E+20
 24
1.000000000000000E+20
 34
1.000000000000000E+20
 15
-1.000000000000000E+20
 25
-1.000000000000000E+20
 35
-1.000000000000000E+20
146
0.0
 13
0.0
 23
0.0
 33
0.0
 16
1.0
 26
0.0
 36
0.0
 17
0.0
 27
1.0
 37
0.0
 76
     0
330
1B
  0
LAYOUT
  5
26
102
{ACAD_REACTORS
330
1A
102
}
330
1A
100
AcDbPlotSettings
  1

  2
none_device
  4

  6

 40
0.0
 41
0.0
 42
0.0
 43
0.0
 44
0.0
 45
0.0
 46
0.0
 47
0.0
 48
0.0
 49
0.0
140
0.0
141
0.0
142
1.0
143
1.0
 70
   688
 72
     0
 73
     0
 74
     5
  7

 75
    16
 76
     0
 77
     2
 78
   300
147
1.0
148
0.0
149
0.0
100
AcDbLayout
  1
Layout2
 70
     1
 71
     2
 10
0.0
 20
0.0
 11
0.0
 21
0.0
 12
0.0
 22
0.0
 32
0.0
 14
0.0
 24
0.0
 34
0.0
 15
0.0
 25
0.0
 35
0.0
146
0.0
 13
0.0
 23
0.0
 33
0.0
 16
1.0
 26
0.0
 36
0.0
 17
0.0
 27
1.0
 37
0.0
 76
     0
330
23
  0
LAYOUT
  5
22
102
{ACAD_REACTORS
330
1A
102
}
330
1A
100
AcDbPlotSettings
  1

  2
none_device
  4

  6

 40
0.0
 41
0.0
 42
0.0
 43
0.0
 44
0.0
 45
0.0
 46
0.0
 47
0.0
 48
0.0
 49
0.0
140
0.0
141
0.0
142
1.0
143
1.0
 70
  1712
 72
     0
 73
     0
 74
     0
  7

 75
     0
 76
     0
 77
     2
 78
   300
147
1.0
148
0.0
149
0.0
100
AcDbLayout
  1
Model
 70
     1
 71
     0
 10
0.0
 20
0.0
 11
12.0
 21
9.0
 12
0.0
 22
0.0
 32
0.0
 14
1.000000000000000E+20
 24
1.000000000000000E+20
 34
1.000000000000000E+20
 15
-1.000000000000000E+20
 25
-1.000000000000000E+20
 35
-1.000000000000000E+20
146
0.0
 13
0.0
 23
0.0
 33
0.0
 16
1.0
 26
0.0
 36
0.0
 17
0.0
 27
1.0
 37
0.0
 76
     0
330
1F
331
29
  0
MATERIAL
  5
3D
102
{ACAD_REACTORS
330
3B
102
}
330
3B
100
AcDbMaterial
  1
ByBlock
 72
     1
 94
      127
  0
MATERIAL
  5
3C
102
{ACAD_REACTORS
330
3B
102
}
330
3B
100
AcDbMaterial
  1
ByLayer
 72
     1
 94
      127
  0
MATERIAL
  5
3E
102
{ACAD_REACTORS
330
3B
102
}
330
3B
100
AcDbMaterial
  1
Global
 72
     1
 94
      127
  0
MLINESTYLE
  5
18
102
{ACAD_REACTORS
330
17
102
}
330
17
100
AcDbMlineStyle
  2
Standard
 70
     0
  3

 62
   256
 51
90.0
 52
90.0
 71
     2
 49
0.5
 62
   256
  6
BYLAYER
 49
-0.5
 62
   256
  6
BYLAYER
  0
ACDBPLACEHOLDER
  5
F
102
{ACAD_REACTORS
330
E
102
}
330
E
  0
VISUALSTYLE
  5
2F
102
{ACAD_REACTORS
330
2A
102
}
330
2A
100
AcDbVisualStyle
  2
2dWireframe
 70
     4
177
     2
291
     0
 71
     0
176
     1
 72
     2
176
     1
 73
     0
176
     1
 90
        0
176
     1
 40
-0.6
176
     1
 41
-30.0
176
     1
 62
     5
 63
     7
421
 16777215
176
     1
 74
     1
176
     1
 91
        4
176
     1
 64
     7
176
     1
 65
   257
176
     1
 75
     1
176
     1
175
     1
176
     1
 42
1.0
176
     1
 92
        0
176
     1
 66
   257
176
     1
 43
1.0
176
     1
 76
     1
176
     1
 77
     6
176
     1
 78
     2
176
     1
 67
     7
176
     1
 79
     5
176
     1
170
     0
176
     1
171
     0
176
     1
290
     0
176
     1
 93
        1
176
     1
 44
0.0
176
     1
173
     0
176
     1
  0
VISUALSTYLE
  5
31
102
{ACAD_REACTORS
330
2A
102
}
330
2A
100
AcDbVisualStyle
  2
3D Hidden
 70
     6
177
     2
291
     0
 71
     1
176
     1
 72
     2
176
     1
 73
     2
176
     1
 90
        0
176
     1
 40
-0.6
176
     1
 41
-30.0
176
     1
 62
     5
 63
     7
421
 16777215
176
     1
 74
     2
176
     1
 91
        2
176
     1
 64
     7
176
     1
 65
   257
176
     1
 75
     2
176
     1
175
     1
176
     1
 42
40.0
176
     1
 92
        0
176
     1
 66
   257
176
     1
 43
1.0
176
     1
 76
     1
176
     1
 77
     6
176
     1
 78
     2
176
     1
 67
     7
176
     1
 79
     3
176
     1
170
     0
176
     1
171
     0
176
     1
290
     0
176
     1
 93
        1
176
     1
 44
0.0
176
     1
173
     0
176
     1
  0
VISUALSTYLE
  5
30
102
{ACAD_REACTORS
330
2A
102
}
330
2A
100
AcDbVisualStyle
  2
3dWireframe
 70
     5
177
     2
291
     0
 71
     0
176
     1
 72
     2
176
     1
 73
     0
176
     1
 90
        0
176
     1
 40
-0.6
176
     1
 41
-30.0
176
     1
 62
     5
 63
     7
421
 16777215
176
     1
 74
     1
176
     1
 91
        4
176
     1
 64
     7
176
     1
 65
   257
176
     1
 75
     1
176
     1
175
     1
176
     1
 42
1.0
176
     1
 92
        0
176
     1
 66
   257
176
     1
 43
1.0
176
     1
 76
     1
176
     1
 77
     6
176
     1
 78
     2
176
     1
 67
     7
176
     1
 79
     5
176
     1
170
     0
176
     1
171
     0
176
     1
290
     0
176
     1
 93
        1
176
     1
 44
0.0
176
     1
173
     0
176
     1
  0
VISUALSTYLE
  5
32
102
{ACAD_REACTORS
330
2A
102
}
330
2A
100
AcDbVisualStyle
  2
Basic
 70
     7
177
     2
291
     1
 71
     1
176
     1
 72
     0
176
     1
 73
     1
176
     1
 90
        0
176
     1
 40
-0.6
176
     1
 41
-30.0
176
     1
 62
     5
 63
     7
421
 16777215
176
     1
 74
     0
176
     1
 91
        4
176
     1
 64
     7
176
     1
 65
   257
176
     1
 75
     1
176
     1
175
     1
176
     1
 42
1.0
176
     1
 92
        8
176
     1
 66
     7
176
     1
 43
1.0
176
     1
 76
     1
176
     1
 77
     6
176
     1
 78
     2
176
     1
 67
     7
176
     1
 79
     5
176
     1
170
     0
176
     1
171
     0
176
     1
290
     0
176
     1
 93
        1
176
     1
 44
0.0
176
     1
173
     0
176
     1
  0
VISUALSTYLE
  5
36
102
{ACAD_REACTORS
330
2A
102
}
330
2A
100
AcDbVisualStyle
  2
Brighten
 70
    12
177
     2
291
     1
 71
     2
176
     1
 72
     2
176
     1
 73
     0
176
     1
 90
        0
176
     1
 40
-0.6
176
     1
 41
-30.0
176
     1
 62
     5
 63
     7
421
 16777215
176
     1
 74
     1
176
     1
 91
        4
176
     1
 64
     7
176
     1
 65
   257
176
     1
 75
     1
176
     1
175
     1
176
     1
 42
1.0
176
     1
 92
        8
176
     1
 66
     7
176
     1
 43
1.0
176
     1
 76
     1
176
     1
 77
     6
176
     1
 78
     2
176
     1
 67
     7
176
     1
 79
     5
176
     1
170
     0
176
     1
171
     0
176
     1
290
     0
176
     1
 93
        1
176
     1
 44
50.0
176
     1
173
     0
176
     1
  0
VISUALSTYLE
  5
3A
102
{ACAD_REACTORS
330
2A
102
}
330
2A
100
AcDbVisualStyle
  2
ColorChange
 70
    16
177
     2
291
     1
 71
     2
176
     1
 72
     2
176
     1
 73
     3
176
     1
 90
        0
176
     1
 40
-0.6
176
     1
 41
-30.0
176
     1
 62
     5
 63
     8
421
  8421504
176
     1
 74
     1
176
     1
 91
        4
176
     1
 64
     7
176
     1
 65
   257
176
     1
 75
     1
176
     1
175
     1
176
     1
 42
1.0
176
     1
 92
        8
176
     1
 66
     8
424
  8421504
176
     1
 43
1.0
176
     1
 76
     1
176
     1
 77
     6
176
     1
 78
     2
176
     1
 67
     7
176
     1
 79
     5
176
     1
170
     0
176
     1
171
     0
176
     1
290
     0
176
     1
 93
        1
176
     1
 44
0.0
176
     1
173
     0
176
     1
  0
VISUALSTYLE
  5
34
102
{ACAD_REACTORS
330
2A
102
}
330
2A
100
AcDbVisualStyle
  2
Conceptual
 70
     9
177
     2
291
     0
 71
     3
176
     1
 72
     2
176
     1
 73
     0
176
     1
 90
        0
176
     1
 40
-0.6
176
     1
 41
-30.0
176
     1
 62
     5
 63
     7
421
 16777215
176
     1
 74
     2
176
     1
 91
        2
176
     1
 64
     7
176
     1
 65
   257
176
     1
 75
     1
176
     1
175
     1
176
     1
 42
40.0
176
     1
 92
        8
176
     1
 66
     7
176
     1
 43
1.0
176
     1
 76
     1
176
     1
 77
     6
176
     1
 78
     2
176
     1
 67
     7
176
     1
 79
     3
176
     1
170
     0
176
     1
171
     0
176
     1
290
     0
176
     1
 93
        1
176
     1
 44
0.0
176
     1
173
     0
176
     1
  0
VISUALSTYLE
  5
35
102
{ACAD_REACTORS
330
2A
102
}
330
2A
100
AcDbVisualStyle
  2
Dim
 70
    11
177
     2
291
     1
 71
     2
176
     1
 72
     2
176
     1
 73
     0
176
     1
 90
        0
176
     1
 40
-0.6
176
     1
 41
-30.0
176
     1
 62
     5
 63
     7
421
 16777215
176
     1
 74
     1
176
     1
 91
        4
176
     1
 64
     7
176
     1
 65
   257
176
     1
 75
     1
176
     1
175
     1
176
     1
 42
1.0
176
     1
 92
        8
176
     1
 66
     7
176
     1
 43
1.0
176
     1
 76
     1
176
     1
 77
     6
176
     1
 78
     2
176
     1
 67
     7
176
     1
 79
     5
176
     1
170
     0
176
     1
171
     0
176
     1
290
     0
176
     1
 93
        1
176
     1
 44
-50.0
176
     1
173
     0
176
     1
  0
VISUALSTYLE
  5
39
102
{ACAD_REACTORS
330
2A
102
}
330
2A
100
AcDbVisualStyle
  2
Facepattern
 70
    15
177
     2
291
     1
 71
     2
176
     1
 72
     2
176
     1
 73
     0
176
     1
 90
        0
176
     1
 40
-0.6
176
     1
 41
-30.0
176
     1
 62
     5
 63
     7
421
 16777215
176
     1
 74
     1
176
     1
 91
        4
176
     1
 64
     7
176
     1
 65
   257
176
     1
 75
     1
176
     1
175
     1
176
     1
 42
1.0
176
     1
 92
        8
176
     1
 66
     7
176
     1
 43
1.0
176
     1
 76
     1
176
     1
 77
     6
176
     1
 78
     2
176
     1
 67
     7
176
     1
 79
     5
176
     1
170
     0
176
     1
171
     0
176
     1
290
     0
176
     1
 93
        1
176
     1
 44
0.0
176
     1
173
     0
176
     1
  0
VISUALSTYLE
  5
2B
102
{ACAD_REACTORS
330
2A
102
}
330
2A
100
AcDbVisualStyle
  2
Flat
 70
     0
177
     2
291
     1
 71
     2
176
     1
 72
     1
176
     1
 73
     1
176
     1
 90
        2
176
     1
 40
-0.6
176
     1
 41
30.0
176
     1
 62
     5
 63
     7
421
 16777215
176
     1
 74
     0
176
     1
 91
        4
176
     1
 64
     7
176
     1
 65
   257
176
     1
 75
     1
176
     1
175
     1
176
     1
 42
1.0
176
     1
 92
        8
176
     1
 66
     7
176
     1
 43
1.0
176
     1
 76
     1
176
     1
 77
     6
176
     1
 78
     2
176
     1
 67
     7
176
     1
 79
     5
176
     1
170
     0
176
     1
171
     0
176
     1
290
     0
176
     1
 93
       13
176
     1
 44
0.0
176
     1
173
     0
176
     1
  0
VISUALSTYLE
  5
2C
102
{ACAD_REACTORS
330
2A
102
}
330
2A
100
AcDbVisualStyle
  2
FlatWithEdges
 70
     1
177
     2
291
     1
 71
     2
176
     1
 72
     1
176
     1
 73
     1
176
     1
 90
        2
176
     1
 40
-0.6
176
     1
 41
30.0
176
     1
 62
     5
 63
     7
421
 16777215
176
     1
 74
     1
176
     1
 91
        4
176
     1
 64
     7
176
     1
 65
   257
176
     1
 75
     1
176
     1
175
     1
176
     1
 42
1.0
176
     1
 92
        0
176
     1
 66
   257
176
     1
 43
1.0
176
     1
 76
     1
176
     1
 77
     6
176
     1
 78
     2
176
     1
 67
     7
176
     1
 79
     5
176
     1
170
     0
176
     1
171
     0
176
     1
290
     0
176
     1
 93
       13
176
     1
 44
0.0
176
     1
173
     0
176
     1
  0
VISUALSTYLE
  5
2D
102
{ACAD_REACTORS
330
2A
102
}
330
2A
100
AcDbVisualStyle
  2
Gouraud
 70
     2
177
     2
291
     1
 71
     2
176
     1
 72
     2
176
     1
 73
     1
176
     1
 90
        2
176
     1
 40
-0.6
176
     1
 41
30.0
176
     1
 62
     5
 63
     7
421
 16777215
176
     1
 74
     0
176
     1
 91
        4
176
     1
 64
     7
176
     1
 65
   257
176
     1
 75
     1
176
     1
175
     1
176
     1
 42
1.0
176
     1
 92
        0
176
     1
 66
     7
176
     1
 43
1.0
176
     1
 76
     1
176
     1
 77
     6
176
     1
 78
     2
176
     1
 67
     7
176
     1
 79
     5
176
     1
170
     0
176
     1
171
     0
176
     1
290
     0
176
     1
 93
       13
176
     1
 44
0.0
176
     1
173
     0
176
     1
  0
VISUALSTYLE
  5
2E
102
{ACAD_REACTORS
330
2A
102
}
330
2A
100
AcDbVisualStyle
  2
GouraudWithEdges
 70
     3
177
     2
291
     1
 71
     2
176
     1
 72
     2
176
     1
 73
     1
176
     1
 90
        2
176
     1
 40
-0.6
176
     1
 41
30.0
176
     1
 62
     5
 63
     7
421
 16777215
176
     1
 74
     1
176
     1
 91
        4
176
     1
 64
     7
176
     1
 65
   257
176
     1
 75
     1
176
     1
175
     1
176
     1
 42
1.0
176
     1
 92
        0
176
     1
 66
   257
176
     1
 43
1.0
176
     1
 76
     1
176
     1
 77
     6
176
     1
 78
     2
176
     1
 67
     7
176
     1
 79
     5
176
     1
170
     0
176
     1
171
     0
176
     1
290
     0
176
     1
 93
       13
176
     1
 44
0.0
176
     1
173
     0
176
     1
  0
VISUALSTYLE
  5
38
102
{ACAD_REACTORS
330
2A
102
}
330
2A
100
AcDbVisualStyle
  2
Linepattern
 70
    14
177
     2
291
     1
 71
     2
176
     1
 72
     2
176
     1
 73
     0
176
     1
 90
        0
176
     1
 40
-0.6
176
     1
 41
-30.0
176
     1
 62
     5
 63
     7
421
 16777215
176
     1
 74
     1
176
     1
 91
        4
176
     1
 64
     7
176
     1
 65
   257
176
     1
 75
     7
176
     1
175
     7
176
     1
 42
1.0
176
     1
 92
        8
176
     1
 66
     7
176
     1
 43
1.0
176
     1
 76
     1
176
     1
 77
     6
176
     1
 78
     2
176
     1
 67
     7
176
     1
 79
     5
176
     1
170
     0
176
     1
171
     0
176
     1
290
     0
176
     1
 93
        1
176
     1
 44
0.0
176
     1
173
     0
176
     1
  0
VISUALSTYLE
  5
33
102
{ACAD_REACTORS
330
2A
102
}
330
2A
100
AcDbVisualStyle
  2
Realistic
 70
     8
177
     2
291
     0
 71
     2
176
     1
 72
     2
176
     1
 73
     0
176
     1
 90
        0
176
     1
 40
-0.6
176
     1
 41
-30.0
176
     1
 62
     5
 63
     7
421
 16777215
176
     1
 74
     1
176
     1
 91
        0
176
     1
 64
     7
176
     1
 65
   257
176
     1
 75
     1
176
     1
175
     1
176
     1
 42
1.0
176
     1
 92
        8
176
     1
 66
     8
424
  7895160
176
     1
 43
1.0
176
     1
 76
     1
176
     1
 77
     6
176
     1
 78
     2
176
     1
 67
     7
176
     1
 79
     5
176
     1
170
     0
176
     1
171
     0
176
     1
290
     0
176
     1
 93
       13
176
     1
 44
0.0
176
     1
173
     0
176
     1
  0
VISUALSTYLE
  5
37
102
{ACAD_REACTORS
330
2A
102
}
330
2A
100
AcDbVisualStyle
  2
Thicken
 70
    13
177
     2
291
     1
 71
     2
176
     1
 72
     2
176
     1
 73
     0
176
     1
 90
        0
176
     1
 40
-0.6
176
     1
 41
-30.0
176
     1
 62
     5
 63
     7
421
 16777215
176
     1
 74
     1
176
     1
 91
        4
176
     1
 64
     7
176
     1
 65
   257
176
     1
 75
     1
176
     1
175
     1
176
     1
 42
1.0
176
     1
 92
       12
176
     1
 66
     7
176
     1
 43
1.0
176
     1
 76
     1
176
     1
 77
     6
176
     1
 78
     2
176
     1
 67
     7
176
     1
 79
     5
176
     1
170
     0
176
     1
171
     0
176
     1
290
     0
176
     1
 93
        1
176
     1
 44
0.0
176
     1
173
     0
176
     1
  0
ENDSEC
  0
EOF
